ISO-10303-21;
HEADER;
FILE_DESCRIPTION (( 'STEP AP203' ),
    '1' );
FILE_NAME ('TLR2A10mƒ¶.STEP',
    '2019-11-13T09:08:43',
    ( '' ),
    ( '' ),
    'SwSTEP 2.0',
    'SolidWorks 2019',
    '' );
FILE_SCHEMA (( 'CONFIG_CONTROL_DESIGN' ));
ENDSEC;

DATA;
#1 = DIRECTION ( 'NONE',  ( 0.0000000000000000000, 0.0000000000000000000, 1.000000000000000000 ) ) ;
#2 = EDGE_CURVE ( 'NONE', #301, #36, #138, .T. ) ;
#3 = AXIS2_PLACEMENT_3D ( 'NONE', #104, #333, #299 ) ;
#4 = CARTESIAN_POINT ( 'NONE',  ( 0.6250000000000000000, 0.6500000000000000222, 0.0000000000000000000 ) ) ;
#5 = EDGE_CURVE ( 'NONE', #355, #240, #222, .T. ) ;
#6 = EDGE_LOOP ( 'NONE', ( #186, #102, #334, #130 ) ) ;
#7 = PRODUCT ( 'TLR2A10mƒ¶', 'TLR2A10mƒ¶', '', ( #200 ) ) ;
#8 = LINE ( 'NONE', #161, #100 ) ;
#9 = ORIENTED_EDGE ( 'NONE', *, *, #156, .F. ) ;
#10 = ORIENTED_EDGE ( 'NONE', *, *, #5, .F. ) ;
#11 = ADVANCED_FACE ( 'NONE', ( #175 ), #315, .T. ) ;
#12 = CARTESIAN_POINT ( 'NONE',  ( -0.6250000000000000000, 1.000000000000000000, -0.01250000000000000069 ) ) ;
#13 = VERTEX_POINT ( 'NONE', #316 ) ;
#14 = DATE_AND_TIME ( #279, #324 ) ;
#15 = EDGE_LOOP ( 'NONE', ( #277, #9, #306, #215, #247, #107, #68, #123 ) ) ;
#16 = DIRECTION ( 'NONE',  ( 1.000000000000000000, 0.0000000000000000000, 0.0000000000000000000 ) ) ;
#17 = COORDINATED_UNIVERSAL_TIME_OFFSET ( 9, 0, .AHEAD. ) ;
#18 = CARTESIAN_POINT ( 'NONE',  ( -0.6250000000000000000, -0.8249999999999999556, -0.01250000000000000069 ) ) ;
#19 = CARTESIAN_POINT ( 'NONE',  ( -0.6250000000000000000, -0.6500000000000000222, -0.01250000000000000069 ) ) ;
#20 = PERSON_AND_ORGANIZATION ( #242, #309 ) ;
#21 = DIRECTION ( 'NONE',  ( 0.0000000000000000000, -1.000000000000000000, 0.0000000000000000000 ) ) ;
#22 = ADVANCED_FACE ( 'NONE', ( #121 ), #288, .T. ) ;
#23 = DIRECTION ( 'NONE',  ( 0.0000000000000000000, 1.000000000000000000, 0.0000000000000000000 ) ) ;
#24 = PRODUCT_RELATED_PRODUCT_CATEGORY ( 'detail', '', ( #7 ) ) ;
#25 = ORIENTED_EDGE ( 'NONE', *, *, #119, .F. ) ;
#26 = LOCAL_TIME ( 18, 8, 43.00000000000000000, #287 ) ;
#27 = APPLICATION_CONTEXT ( 'configuration controlled 3d designs of mechanical parts and assemblies' ) ;
#28 = LINE ( 'NONE', #30, #183 ) ;
#29 = EDGE_CURVE ( 'NONE', #199, #46, #228, .T. ) ;
#30 = CARTESIAN_POINT ( 'NONE',  ( -0.6250000000000000000, 1.000000000000000000, 0.0000000000000000000 ) ) ;
#31 = AXIS2_PLACEMENT_3D ( 'NONE', #313, #60, #232 ) ;
#32 = EDGE_CURVE ( 'NONE', #46, #70, #87, .T. ) ;
#33 = CARTESIAN_POINT ( 'NONE',  ( -0.6250000000000000000, -1.000000000000000000, -0.01250000000000000069 ) ) ;
#34 = ADVANCED_FACE ( 'NONE', ( #210 ), #146, .T. ) ;
#35 = LINE ( 'NONE', #305, #194 ) ;
#36 = VERTEX_POINT ( 'NONE', #63 ) ;
#37 = EDGE_CURVE ( 'NONE', #89, #199, #362, .T. ) ;
#38 =( LENGTH_UNIT ( ) NAMED_UNIT ( * ) SI_UNIT ( .MILLI., .METRE. ) );
#39 = VERTEX_POINT ( 'NONE', #339 ) ;
#40 = VECTOR ( 'NONE', #346, 1000.000000000000000 ) ;
#41 = DIRECTION ( 'NONE',  ( 0.0000000000000000000, 0.0000000000000000000, -1.000000000000000000 ) ) ;
#42 = VERTEX_POINT ( 'NONE', #185 ) ;
#43 = EDGE_CURVE ( 'NONE', #264, #39, #177, .T. ) ;
#44 = DIRECTION ( 'NONE',  ( 0.0000000000000000000, 0.0000000000000000000, 1.000000000000000000 ) ) ;
#45 = APPLICATION_CONTEXT ( 'configuration controlled 3d designs of mechanical parts and assemblies' ) ;
#46 = VERTEX_POINT ( 'NONE', #115 ) ;
#47 = PERSON_AND_ORGANIZATION ( #242, #309 ) ;
#48 = VECTOR ( 'NONE', #213, 1000.000000000000000 ) ;
#49 = ORIENTED_EDGE ( 'NONE', *, *, #62, .T. ) ;
#50 = SECURITY_CLASSIFICATION ( '', '', #54 ) ;
#51 = APPROVAL_STATUS ( 'not_yet_approved' ) ;
#52 = DIRECTION ( 'NONE',  ( 0.0000000000000000000, -1.000000000000000000, 0.0000000000000000000 ) ) ;
#53 = UNCERTAINTY_MEASURE_WITH_UNIT (LENGTH_MEASURE( 1.000000000000000082E-05 ), #38, 'distance_accuracy_value', 'NONE');
#54 = SECURITY_CLASSIFICATION_LEVEL ( 'unclassified' ) ;
#55 = DIRECTION ( 'NONE',  ( -1.000000000000000000, 0.0000000000000000000, 0.0000000000000000000 ) ) ;
#56 = CC_DESIGN_PERSON_AND_ORGANIZATION_ASSIGNMENT ( #203, #179, ( #293 ) ) ;
#57 = APPROVAL_DATE_TIME ( #307, #237 ) ;
#58 = DIRECTION ( 'NONE',  ( 0.0000000000000000000, 0.0000000000000000000, -1.000000000000000000 ) ) ;
#59 = DATE_AND_TIME ( #150, #139 ) ;
#60 = DIRECTION ( 'NONE',  ( 1.000000000000000000, 0.0000000000000000000, 0.0000000000000000000 ) ) ;
#61 = VECTOR ( 'NONE', #271, 1000.000000000000000 ) ;
#62 = EDGE_CURVE ( 'NONE', #36, #134, #361, .T. ) ;
#63 = CARTESIAN_POINT ( 'NONE',  ( -0.6250000000000000000, -1.000000000000000000, 0.2599999999999999534 ) ) ;
#64 = EDGE_LOOP ( 'NONE', ( #304, #49, #135, #10, #317, #234, #292, #300 ) ) ;
#65 = EDGE_CURVE ( 'NONE', #326, #42, #77, .T. ) ;
#66 = LINE ( 'NONE', #94, #289 ) ;
#67 = VECTOR ( 'NONE', #112, 1000.000000000000000 ) ;
#68 = ORIENTED_EDGE ( 'NONE', *, *, #147, .F. ) ;
#69 = PRODUCT_DEFINITION_SHAPE ( 'NONE', 'NONE',  #302 ) ;
#70 = VERTEX_POINT ( 'NONE', #149 ) ;
#71 = CARTESIAN_POINT ( 'NONE',  ( 0.0000000000000000000, -0.6500000000000000222, 0.06000000000000000472 ) ) ;
#72 = ORIENTED_EDGE ( 'NONE', *, *, #164, .T. ) ;
#73 = EDGE_LOOP ( 'NONE', ( #155, #273, #211, #244 ) ) ;
#74 = ORIENTED_EDGE ( 'NONE', *, *, #65, .F. ) ;
#75 = EDGE_CURVE ( 'NONE', #358, #13, #152, .T. ) ;
#76 = APPROVAL_ROLE ( '' ) ;
#77 = LINE ( 'NONE', #225, #122 ) ;
#78 = DATE_TIME_ROLE ( 'classification_date' ) ;
#79 = LOCAL_TIME ( 18, 8, 43.00000000000000000, #17 ) ;
#80 = FACE_OUTER_BOUND ( 'NONE', #6, .T. ) ;
#81 = COORDINATED_UNIVERSAL_TIME_OFFSET ( 9, 0, .AHEAD. ) ;
#82 = CARTESIAN_POINT ( 'NONE',  ( -0.6250000000000000000, 0.0000000000000000000, 0.06000000000000000472 ) ) ;
#83 = PLANE ( 'NONE',  #169 ) ;
#84 = VECTOR ( 'NONE', #151, 1000.000000000000000 ) ;
#85 = ADVANCED_FACE ( 'NONE', ( #80 ), #261, .T. ) ;
#86 = CALENDAR_DATE ( 2019, 13, 11 ) ;
#87 = LINE ( 'NONE', #120, #314 ) ;
#88 = AXIS2_PLACEMENT_3D ( 'NONE', #219, #325, #216 ) ;
#89 = VERTEX_POINT ( 'NONE', #19 ) ;
#90 = CARTESIAN_POINT ( 'NONE',  ( 0.6250000000000000000, 0.6500000000000000222, -0.01250000000000000069 ) ) ;
#91 = FACE_OUTER_BOUND ( 'NONE', #357, .T. ) ;
#92 = LINE ( 'NONE', #4, #257 ) ;
#93 = CARTESIAN_POINT ( 'NONE',  ( 0.0000000000000000000, -0.6500000000000000222, -0.01250000000000000069 ) ) ;
#94 = CARTESIAN_POINT ( 'NONE',  ( -0.6250000000000000000, -0.6500000000000000222, 0.0000000000000000000 ) ) ;
#95 = AXIS2_PLACEMENT_3D ( 'NONE', #256, #58, #180 ) ;
#96 = CC_DESIGN_PERSON_AND_ORGANIZATION_ASSIGNMENT ( #336, #259, ( #7 ) ) ;
#97 = DIRECTION ( 'NONE',  ( 1.000000000000000000, 0.0000000000000000000, 0.0000000000000000000 ) ) ;
#98 = EDGE_LOOP ( 'NONE', ( #72, #171, #74, #283 ) ) ;
#99 = LOCAL_TIME ( 18, 8, 43.00000000000000000, #310 ) ;
#100 = VECTOR ( 'NONE', #189, 1000.000000000000000 ) ;
#101 = FACE_OUTER_BOUND ( 'NONE', #73, .T. ) ;
#102 = ORIENTED_EDGE ( 'NONE', *, *, #245, .T. ) ;
#103 = EDGE_CURVE ( 'NONE', #70, #358, #365, .T. ) ;
#104 = CARTESIAN_POINT ( 'NONE',  ( -0.6250000000000000000, -0.8249999999999999556, 0.0000000000000000000 ) ) ;
#105 = ORIENTED_EDGE ( 'NONE', *, *, #29, .T. ) ;
#106 = VECTOR ( 'NONE', #16, 1000.000000000000000 ) ;
#107 = ORIENTED_EDGE ( 'NONE', *, *, #233, .F. ) ;
#108 = APPROVAL ( #51, 'UNSPECIFIED' ) ;
#109 = CARTESIAN_POINT ( 'NONE',  ( 0.6250000000000000000, 0.0000000000000000000, 0.2599999999999999534 ) ) ;
#110 = DIRECTION ( 'NONE',  ( -1.000000000000000000, 0.0000000000000000000, 0.0000000000000000000 ) ) ;
#111 = APPROVAL_ROLE ( '' ) ;
#112 = DIRECTION ( 'NONE',  ( 0.0000000000000000000, 1.000000000000000000, 0.0000000000000000000 ) ) ;
#113 = CC_DESIGN_DATE_AND_TIME_ASSIGNMENT ( #59, #116, ( #302 ) ) ;
#114 = COORDINATED_UNIVERSAL_TIME_OFFSET ( 9, 0, .AHEAD. ) ;
#115 = CARTESIAN_POINT ( 'NONE',  ( 0.6250000000000000000, -1.000000000000000000, -0.01250000000000000069 ) ) ;
#116 = DATE_TIME_ROLE ( 'creation_date' ) ;
#117 = DIRECTION ( 'NONE',  ( 0.0000000000000000000, 0.0000000000000000000, 1.000000000000000000 ) ) ;
#118 = DIRECTION ( 'NONE',  ( 0.0000000000000000000, 0.0000000000000000000, 1.000000000000000000 ) ) ;
#119 = EDGE_CURVE ( 'NONE', #199, #36, #204, .T. ) ;
#120 = CARTESIAN_POINT ( 'NONE',  ( 0.6250000000000000000, -0.8249999999999999556, -0.01250000000000000069 ) ) ;
#121 = FACE_OUTER_BOUND ( 'NONE', #281, .T. ) ;
#122 = VECTOR ( 'NONE', #337, 1000.000000000000000 ) ;
#123 = ORIENTED_EDGE ( 'NONE', *, *, #65, .T. ) ;
#124 = PLANE ( 'NONE',  #294 ) ;
#125 = DIRECTION ( 'NONE',  ( -1.000000000000000000, 0.0000000000000000000, 0.0000000000000000000 ) ) ;
#126 = DIRECTION ( 'NONE',  ( 0.0000000000000000000, 1.000000000000000000, 0.0000000000000000000 ) ) ;
#127 = EDGE_CURVE ( 'NONE', #13, #264, #311, .T. ) ;
#128 = LINE ( 'NONE', #214, #131 ) ;
#129 = DIRECTION ( 'NONE',  ( 0.0000000000000000000, 0.0000000000000000000, 1.000000000000000000 ) ) ;
#130 = ORIENTED_EDGE ( 'NONE', *, *, #280, .T. ) ;
#131 = VECTOR ( 'NONE', #97, 1000.000000000000000 ) ;
#132 = ADVANCED_FACE ( 'NONE', ( #286 ), #83, .T. ) ;
#133 = LINE ( 'NONE', #71, #159 ) ;
#134 = VERTEX_POINT ( 'NONE', #345 ) ;
#135 = ORIENTED_EDGE ( 'NONE', *, *, #164, .F. ) ;
#136 = VECTOR ( 'NONE', #340, 1000.000000000000000 ) ;
#137 = FACE_OUTER_BOUND ( 'NONE', #218, .T. ) ;
#138 = LINE ( 'NONE', #250, #356 ) ;
#139 = LOCAL_TIME ( 18, 8, 43.00000000000000000, #81 ) ;
#140 = PERSON_AND_ORGANIZATION_ROLE ( 'creator' ) ;
#141 = VERTEX_POINT ( 'NONE', #90 ) ;
#142 = PERSON_AND_ORGANIZATION_ROLE ( 'creator' ) ;
#143 = ORIENTED_EDGE ( 'NONE', *, *, #2, .F. ) ;
#144 = DIRECTION ( 'NONE',  ( 0.0000000000000000000, 1.000000000000000000, 0.0000000000000000000 ) ) ;
#145 = APPROVAL_DATE_TIME ( #176, #344 ) ;
#146 = PLANE ( 'NONE',  #230 ) ;
#147 = EDGE_CURVE ( 'NONE', #326, #141, #265, .T. ) ;
#148 = PERSON_AND_ORGANIZATION_ROLE ( 'classification_officer' ) ;
#149 = CARTESIAN_POINT ( 'NONE',  ( 0.6250000000000000000, -0.6500000000000000222, -0.01250000000000000069 ) ) ;
#150 = CALENDAR_DATE ( 2019, 13, 11 ) ;
#151 = DIRECTION ( 'NONE',  ( 0.0000000000000000000, -1.000000000000000000, 0.0000000000000000000 ) ) ;
#152 = LINE ( 'NONE', #224, #67 ) ;
#153 = ADVANCED_FACE ( 'NONE', ( #263 ), #212, .T. ) ;
#154 = APPROVAL_PERSON_ORGANIZATION ( #254, #344, #111 ) ;
#155 = ORIENTED_EDGE ( 'NONE', *, *, #127, .T. ) ;
#156 = EDGE_CURVE ( 'NONE', #46, #301, #369, .T. ) ;
#157 = VECTOR ( 'NONE', #207, 1000.000000000000000 ) ;
#158 = DIRECTION ( 'NONE',  ( 0.0000000000000000000, 0.0000000000000000000, 1.000000000000000000 ) ) ;
#159 = VECTOR ( 'NONE', #249, 1000.000000000000000 ) ;
#160 = FACE_OUTER_BOUND ( 'NONE', #64, .T. ) ;
#161 = CARTESIAN_POINT ( 'NONE',  ( 0.0000000000000000000, 0.6500000000000000222, -0.01250000000000000069 ) ) ;
#162 = ORIENTED_EDGE ( 'NONE', *, *, #62, .F. ) ;
#163 = ORIENTED_EDGE ( 'NONE', *, *, #29, .F. ) ;
#164 = EDGE_CURVE ( 'NONE', #240, #134, #28, .T. ) ;
#165 = CARTESIAN_POINT ( 'NONE',  ( -0.6250000000000000000, 0.6500000000000000222, 0.0000000000000000000 ) ) ;
#166 = ORIENTED_EDGE ( 'NONE', *, *, #178, .T. ) ;
#167 = PLANE ( 'NONE',  #3 ) ;
#168 = EDGE_LOOP ( 'NONE', ( #298, #276, #25, #105 ) ) ;
#169 = AXIS2_PLACEMENT_3D ( 'NONE', #308, #52, #284 ) ;
#170 = DIRECTION ( 'NONE',  ( 1.000000000000000000, 0.0000000000000000000, 0.0000000000000000000 ) ) ;
#171 = ORIENTED_EDGE ( 'NONE', *, *, #235, .T. ) ;
#172 = CC_DESIGN_APPROVAL ( #108, ( #293 ) ) ;
#173 = DESIGN_CONTEXT ( 'detailed design', #27, 'design' ) ;
#174 = APPROVAL_DATE_TIME ( #14, #108 ) ;
#175 = FACE_OUTER_BOUND ( 'NONE', #15, .T. ) ;
#176 = DATE_AND_TIME ( #223, #26 ) ;
#177 = LINE ( 'NONE', #82, #84 ) ;
#178 = EDGE_CURVE ( 'NONE', #89, #39, #66, .T. ) ;
#179 = PERSON_AND_ORGANIZATION_ROLE ( 'design_supplier' ) ;
#180 = DIRECTION ( 'NONE',  ( -1.000000000000000000, 0.0000000000000000000, 0.0000000000000000000 ) ) ;
#181 = CC_DESIGN_PERSON_AND_ORGANIZATION_ASSIGNMENT ( #366, #140, ( #293 ) ) ;
#182 = APPROVAL_ROLE ( '' ) ;
#183 = VECTOR ( 'NONE', #319, 1000.000000000000000 ) ;
#184 = DIRECTION ( 'NONE',  ( 1.000000000000000000, 0.0000000000000000000, 0.0000000000000000000 ) ) ;
#185 = CARTESIAN_POINT ( 'NONE',  ( 0.6250000000000000000, 1.000000000000000000, 0.2599999999999999534 ) ) ;
#186 = ORIENTED_EDGE ( 'NONE', *, *, #147, .T. ) ;
#187 = CC_DESIGN_APPROVAL ( #237, ( #302 ) ) ;
#188 = CARTESIAN_POINT ( 'NONE',  ( 0.6250000000000000000, -1.000000000000000000, 0.0000000000000000000 ) ) ;
#189 = DIRECTION ( 'NONE',  ( -1.000000000000000000, 0.0000000000000000000, 0.0000000000000000000 ) ) ;
#190 = ORIENTED_EDGE ( 'NONE', *, *, #266, .F. ) ;
#191 = ORIENTED_EDGE ( 'NONE', *, *, #235, .F. ) ;
#192 = LINE ( 'NONE', #165, #226 ) ;
#193 = ORIENTED_EDGE ( 'NONE', *, *, #43, .F. ) ;
#194 = VECTOR ( 'NONE', #243, 1000.000000000000000 ) ;
#195 = PLANE ( 'NONE',  #88 ) ;
#196 = ORIENTED_EDGE ( 'NONE', *, *, #103, .F. ) ;
#197 = ADVANCED_BREP_SHAPE_REPRESENTATION ( 'TLR2A10mƒ¶', ( #364, #251 ), #209 ) ;
#198 = ADVANCED_FACE ( 'NONE', ( #91 ), #124, .T. ) ;
#199 = VERTEX_POINT ( 'NONE', #33 ) ;
#200 = MECHANICAL_CONTEXT ( 'NONE', #45, 'mechanical' ) ;
#201 = CARTESIAN_POINT ( 'NONE',  ( 0.0000000000000000000, 0.6500000000000000222, 0.06000000000000000472 ) ) ;
#202 = APPROVAL_PERSON_ORGANIZATION ( #341, #108, #76 ) ;
#203 = PERSON_AND_ORGANIZATION ( #242, #309 ) ;
#204 = LINE ( 'NONE', #367, #278 ) ;
#205 = CARTESIAN_POINT ( 'NONE',  ( -0.6250000000000000000, 0.0000000000000000000, 0.2599999999999999534 ) ) ;
#206 = CLOSED_SHELL ( 'NONE', ( #132, #260, #34, #11, #347, #153, #22, #318, #85, #198 ) ) ;
#207 = DIRECTION ( 'NONE',  ( 0.0000000000000000000, 1.000000000000000000, 0.0000000000000000000 ) ) ;
#208 = APPLICATION_PROTOCOL_DEFINITION ( 'international standard', 'config_control_design', 1994, #27 ) ;
#209 =( GEOMETRIC_REPRESENTATION_CONTEXT ( 3 ) GLOBAL_UNCERTAINTY_ASSIGNED_CONTEXT ( ( #53 ) ) GLOBAL_UNIT_ASSIGNED_CONTEXT ( ( #38, #303, #246 ) ) REPRESENTATION_CONTEXT ( 'NONE', 'WORKASPACE' ) );
#210 = FACE_OUTER_BOUND ( 'NONE', #332, .T. ) ;
#211 = ORIENTED_EDGE ( 'NONE', *, *, #245, .F. ) ;
#212 = PLANE ( 'NONE',  #262 ) ;
#213 = DIRECTION ( 'NONE',  ( 0.0000000000000000000, -1.000000000000000000, 0.0000000000000000000 ) ) ;
#214 = CARTESIAN_POINT ( 'NONE',  ( 0.0000000000000000000, 1.000000000000000000, -0.01250000000000000069 ) ) ;
#215 = ORIENTED_EDGE ( 'NONE', *, *, #103, .T. ) ;
#216 = DIRECTION ( 'NONE',  ( 0.0000000000000000000, 0.0000000000000000000, -1.000000000000000000 ) ) ;
#217 = EDGE_CURVE ( 'NONE', #70, #89, #270, .T. ) ;
#218 = EDGE_LOOP ( 'NONE', ( #221, #330, #193, #275 ) ) ;
#219 = CARTESIAN_POINT ( 'NONE',  ( 0.0000000000000000000, 0.6500000000000000222, 0.0000000000000000000 ) ) ;
#220 = ORIENTED_EDGE ( 'NONE', *, *, #217, .F. ) ;
#221 = ORIENTED_EDGE ( 'NONE', *, *, #75, .F. ) ;
#222 = LINE ( 'NONE', #258, #157 ) ;
#223 = CALENDAR_DATE ( 2019, 13, 11 ) ;
#224 = CARTESIAN_POINT ( 'NONE',  ( 0.6250000000000000000, 0.0000000000000000000, 0.06000000000000000472 ) ) ;
#225 = CARTESIAN_POINT ( 'NONE',  ( 0.6250000000000000000, 1.000000000000000000, 0.0000000000000000000 ) ) ;
#226 = VECTOR ( 'NONE', #44, 1000.000000000000000 ) ;
#227 = DATE_AND_TIME ( #285, #99 ) ;
#228 = LINE ( 'NONE', #255, #106 ) ;
#229 = CARTESIAN_POINT ( 'NONE',  ( 0.6250000000000000000, -0.6500000000000000222, 0.0000000000000000000 ) ) ;
#230 = AXIS2_PLACEMENT_3D ( 'NONE', #290, #144, #363 ) ;
#231 = PERSON_AND_ORGANIZATION ( #242, #309 ) ;
#232 = DIRECTION ( 'NONE',  ( 0.0000000000000000000, 0.0000000000000000000, -1.000000000000000000 ) ) ;
#233 = EDGE_CURVE ( 'NONE', #141, #13, #92, .T. ) ;
#234 = ORIENTED_EDGE ( 'NONE', *, *, #43, .T. ) ;
#235 = EDGE_CURVE ( 'NONE', #134, #42, #35, .T. ) ;
#236 = DIRECTION ( 'NONE',  ( 0.0000000000000000000, 0.0000000000000000000, -1.000000000000000000 ) ) ;
#237 = APPROVAL ( #312, 'UNSPECIFIED' ) ;
#238 = CC_DESIGN_SECURITY_CLASSIFICATION ( #50, ( #293 ) ) ;
#239 = CARTESIAN_POINT ( 'NONE',  ( 0.0000000000000000000, 0.0000000000000000000, 0.06000000000000000472 ) ) ;
#240 = VERTEX_POINT ( 'NONE', #12 ) ;
#241 = AXIS2_PLACEMENT_3D ( 'NONE', #239, #41, #348 ) ;
#242 = PERSON ( 'UNSPECIFIED', 'UNSPECIFIED', 'UNSPECIFIED', ('UNSPECIFIED'), ('UNSPECIFIED'), ('UNSPECIFIED') ) ;
#243 = DIRECTION ( 'NONE',  ( 1.000000000000000000, 0.0000000000000000000, 0.0000000000000000000 ) ) ;
#244 = ORIENTED_EDGE ( 'NONE', *, *, #233, .T. ) ;
#245 = EDGE_CURVE ( 'NONE', #141, #355, #8, .T. ) ;
#246 =( NAMED_UNIT ( * ) SI_UNIT ( $, .STERADIAN. ) SOLID_ANGLE_UNIT ( ) );
#247 = ORIENTED_EDGE ( 'NONE', *, *, #75, .T. ) ;
#248 = AXIS2_PLACEMENT_3D ( 'NONE', #342, #117, #184 ) ;
#249 = DIRECTION ( 'NONE',  ( 1.000000000000000000, 0.0000000000000000000, 0.0000000000000000000 ) ) ;
#250 = CARTESIAN_POINT ( 'NONE',  ( 0.0000000000000000000, -1.000000000000000000, 0.2599999999999999534 ) ) ;
#251 = AXIS2_PLACEMENT_3D ( 'NONE', #338, #118, #170 ) ;
#252 = APPLICATION_PROTOCOL_DEFINITION ( 'international standard', 'config_control_design', 1994, #45 ) ;
#253 = ORIENTED_EDGE ( 'NONE', *, *, #37, .F. ) ;
#254 = PERSON_AND_ORGANIZATION ( #242, #309 ) ;
#255 = CARTESIAN_POINT ( 'NONE',  ( 0.0000000000000000000, -1.000000000000000000, -0.01250000000000000069 ) ) ;
#256 = CARTESIAN_POINT ( 'NONE',  ( 0.0000000000000000000, 0.8249999999999999556, -0.01250000000000000069 ) ) ;
#257 = VECTOR ( 'NONE', #129, 1000.000000000000000 ) ;
#258 = CARTESIAN_POINT ( 'NONE',  ( -0.6250000000000000000, 0.8249999999999999556, -0.01250000000000000069 ) ) ;
#259 = PERSON_AND_ORGANIZATION_ROLE ( 'design_owner' ) ;
#260 = ADVANCED_FACE ( 'NONE', ( #160 ), #167, .T. ) ;
#261 = PLANE ( 'NONE',  #95 ) ;
#262 = AXIS2_PLACEMENT_3D ( 'NONE', #295, #126, #320 ) ;
#263 = FACE_OUTER_BOUND ( 'NONE', #98, .T. ) ;
#264 = VERTEX_POINT ( 'NONE', #353 ) ;
#265 = LINE ( 'NONE', #321, #48 ) ;
#266 = EDGE_CURVE ( 'NONE', #42, #301, #297, .T. ) ;
#267 = CC_DESIGN_DATE_AND_TIME_ASSIGNMENT ( #227, #78, ( #50 ) ) ;
#268 = VECTOR ( 'NONE', #1, 1000.000000000000000 ) ;
#269 = CARTESIAN_POINT ( 'NONE',  ( 0.0000000000000000000, -0.8249999999999999556, -0.01250000000000000069 ) ) ;
#270 = LINE ( 'NONE', #93, #40 ) ;
#271 = DIRECTION ( 'NONE',  ( 0.0000000000000000000, -1.000000000000000000, 0.0000000000000000000 ) ) ;
#272 = PLANE ( 'NONE',  #241 ) ;
#273 = ORIENTED_EDGE ( 'NONE', *, *, #359, .F. ) ;
#274 = CARTESIAN_POINT ( 'NONE',  ( 0.6250000000000000000, -1.000000000000000000, 0.2599999999999999534 ) ) ;
#275 = ORIENTED_EDGE ( 'NONE', *, *, #127, .F. ) ;
#276 = ORIENTED_EDGE ( 'NONE', *, *, #2, .T. ) ;
#277 = ORIENTED_EDGE ( 'NONE', *, *, #266, .T. ) ;
#278 = VECTOR ( 'NONE', #335, 1000.000000000000000 ) ;
#279 = CALENDAR_DATE ( 2019, 13, 11 ) ;
#280 = EDGE_CURVE ( 'NONE', #240, #326, #128, .T. ) ;
#281 = EDGE_LOOP ( 'NONE', ( #143, #190, #191, #162 ) ) ;
#282 = SHAPE_DEFINITION_REPRESENTATION ( #69, #197 ) ;
#283 = ORIENTED_EDGE ( 'NONE', *, *, #280, .F. ) ;
#284 = DIRECTION ( 'NONE',  ( 0.0000000000000000000, 0.0000000000000000000, -1.000000000000000000 ) ) ;
#285 = CALENDAR_DATE ( 2019, 13, 11 ) ;
#286 = FACE_OUTER_BOUND ( 'NONE', #168, .T. ) ;
#287 = COORDINATED_UNIVERSAL_TIME_OFFSET ( 9, 0, .AHEAD. ) ;
#288 = PLANE ( 'NONE',  #248 ) ;
#289 = VECTOR ( 'NONE', #158, 1000.000000000000000 ) ;
#290 = CARTESIAN_POINT ( 'NONE',  ( 0.0000000000000000000, -0.6500000000000000222, 0.0000000000000000000 ) ) ;
#291 = DIRECTION ( 'NONE',  ( 0.0000000000000000000, 1.000000000000000000, 0.0000000000000000000 ) ) ;
#292 = ORIENTED_EDGE ( 'NONE', *, *, #178, .F. ) ;
#293 = PRODUCT_DEFINITION_FORMATION_WITH_SPECIFIED_SOURCE ( 'ANY', '', #7, .NOT_KNOWN. ) ;
#294 = AXIS2_PLACEMENT_3D ( 'NONE', #269, #236, #125 ) ;
#295 = CARTESIAN_POINT ( 'NONE',  ( 0.0000000000000000000, 1.000000000000000000, 0.0000000000000000000 ) ) ;
#296 = VECTOR ( 'NONE', #291, 1000.000000000000000 ) ;
#297 = LINE ( 'NONE', #109, #61 ) ;
#298 = ORIENTED_EDGE ( 'NONE', *, *, #156, .T. ) ;
#299 = DIRECTION ( 'NONE',  ( 0.0000000000000000000, 0.0000000000000000000, 1.000000000000000000 ) ) ;
#300 = ORIENTED_EDGE ( 'NONE', *, *, #37, .T. ) ;
#301 = VERTEX_POINT ( 'NONE', #274 ) ;
#302 = PRODUCT_DEFINITION ( 'UNKNOWN', '', #293, #173 ) ;
#303 =( NAMED_UNIT ( * ) PLANE_ANGLE_UNIT ( ) SI_UNIT ( $, .RADIAN. ) );
#304 = ORIENTED_EDGE ( 'NONE', *, *, #119, .T. ) ;
#305 = CARTESIAN_POINT ( 'NONE',  ( 0.0000000000000000000, 1.000000000000000000, 0.2599999999999999534 ) ) ;
#306 = ORIENTED_EDGE ( 'NONE', *, *, #32, .T. ) ;
#307 = DATE_AND_TIME ( #86, #79 ) ;
#308 = CARTESIAN_POINT ( 'NONE',  ( 0.0000000000000000000, -1.000000000000000000, 0.0000000000000000000 ) ) ;
#309 = ORGANIZATION ( 'UNSPECIFIED', 'UNSPECIFIED', '' ) ;
#310 = COORDINATED_UNIVERSAL_TIME_OFFSET ( 9, 0, .AHEAD. ) ;
#311 = LINE ( 'NONE', #201, #323 ) ;
#312 = APPROVAL_STATUS ( 'not_yet_approved' ) ;
#313 = CARTESIAN_POINT ( 'NONE',  ( 0.6250000000000000000, -0.8249999999999999556, 0.0000000000000000000 ) ) ;
#314 = VECTOR ( 'NONE', #23, 1000.000000000000000 ) ;
#315 = PLANE ( 'NONE',  #31 ) ;
#316 = CARTESIAN_POINT ( 'NONE',  ( 0.6250000000000000000, 0.6500000000000000222, 0.06000000000000000472 ) ) ;
#317 = ORIENTED_EDGE ( 'NONE', *, *, #359, .T. ) ;
#318 = ADVANCED_FACE ( 'NONE', ( #137 ), #272, .T. ) ;
#319 = DIRECTION ( 'NONE',  ( 0.0000000000000000000, 0.0000000000000000000, 1.000000000000000000 ) ) ;
#320 = DIRECTION ( 'NONE',  ( 0.0000000000000000000, 0.0000000000000000000, 1.000000000000000000 ) ) ;
#321 = CARTESIAN_POINT ( 'NONE',  ( 0.6250000000000000000, 0.8249999999999999556, -0.01250000000000000069 ) ) ;
#322 = EDGE_CURVE ( 'NONE', #39, #358, #133, .T. ) ;
#323 = VECTOR ( 'NONE', #55, 1000.000000000000000 ) ;
#324 = LOCAL_TIME ( 18, 8, 43.00000000000000000, #114 ) ;
#325 = DIRECTION ( 'NONE',  ( 0.0000000000000000000, -1.000000000000000000, 0.0000000000000000000 ) ) ;
#326 = VERTEX_POINT ( 'NONE', #351 ) ;
#327 = CARTESIAN_POINT ( 'NONE',  ( -0.6250000000000000000, 0.6500000000000000222, -0.01250000000000000069 ) ) ;
#328 = ORIENTED_EDGE ( 'NONE', *, *, #322, .T. ) ;
#329 = CARTESIAN_POINT ( 'NONE',  ( 0.6250000000000000000, -0.6500000000000000222, 0.06000000000000000472 ) ) ;
#330 = ORIENTED_EDGE ( 'NONE', *, *, #322, .F. ) ;
#331 = CC_DESIGN_PERSON_AND_ORGANIZATION_ASSIGNMENT ( #20, #142, ( #302 ) ) ;
#332 = EDGE_LOOP ( 'NONE', ( #328, #196, #352, #166 ) ) ;
#333 = DIRECTION ( 'NONE',  ( -1.000000000000000000, 0.0000000000000000000, 0.0000000000000000000 ) ) ;
#334 = ORIENTED_EDGE ( 'NONE', *, *, #5, .T. ) ;
#335 = DIRECTION ( 'NONE',  ( 0.0000000000000000000, 0.0000000000000000000, 1.000000000000000000 ) ) ;
#336 = PERSON_AND_ORGANIZATION ( #242, #309 ) ;
#337 = DIRECTION ( 'NONE',  ( 0.0000000000000000000, 0.0000000000000000000, 1.000000000000000000 ) ) ;
#338 = CARTESIAN_POINT ( 'NONE',  ( 0.0000000000000000000, 0.0000000000000000000, 0.0000000000000000000 ) ) ;
#339 = CARTESIAN_POINT ( 'NONE',  ( -0.6250000000000000000, -0.6500000000000000222, 0.06000000000000000472 ) ) ;
#340 = DIRECTION ( 'NONE',  ( 0.0000000000000000000, 0.0000000000000000000, 1.000000000000000000 ) ) ;
#341 = PERSON_AND_ORGANIZATION ( #242, #309 ) ;
#342 = CARTESIAN_POINT ( 'NONE',  ( 0.0000000000000000000, 0.0000000000000000000, 0.2599999999999999534 ) ) ;
#343 = ORIENTED_EDGE ( 'NONE', *, *, #32, .F. ) ;
#344 = APPROVAL ( #360, 'UNSPECIFIED' ) ;
#345 = CARTESIAN_POINT ( 'NONE',  ( -0.6250000000000000000, 1.000000000000000000, 0.2599999999999999534 ) ) ;
#346 = DIRECTION ( 'NONE',  ( -1.000000000000000000, 0.0000000000000000000, 0.0000000000000000000 ) ) ;
#347 = ADVANCED_FACE ( 'NONE', ( #101 ), #195, .T. ) ;
#348 = DIRECTION ( 'NONE',  ( -1.000000000000000000, 0.0000000000000000000, 0.0000000000000000000 ) ) ;
#349 = CC_DESIGN_APPROVAL ( #344, ( #50 ) ) ;
#350 = APPROVAL_PERSON_ORGANIZATION ( #47, #237, #182 ) ;
#351 = CARTESIAN_POINT ( 'NONE',  ( 0.6250000000000000000, 1.000000000000000000, -0.01250000000000000069 ) ) ;
#352 = ORIENTED_EDGE ( 'NONE', *, *, #217, .T. ) ;
#353 = CARTESIAN_POINT ( 'NONE',  ( -0.6250000000000000000, 0.6500000000000000222, 0.06000000000000000472 ) ) ;
#354 = CC_DESIGN_PERSON_AND_ORGANIZATION_ASSIGNMENT ( #231, #148, ( #50 ) ) ;
#355 = VERTEX_POINT ( 'NONE', #327 ) ;
#356 = VECTOR ( 'NONE', #110, 1000.000000000000000 ) ;
#357 = EDGE_LOOP ( 'NONE', ( #343, #163, #253, #220 ) ) ;
#358 = VERTEX_POINT ( 'NONE', #329 ) ;
#359 = EDGE_CURVE ( 'NONE', #355, #264, #192, .T. ) ;
#360 = APPROVAL_STATUS ( 'not_yet_approved' ) ;
#361 = LINE ( 'NONE', #205, #296 ) ;
#362 = LINE ( 'NONE', #18, #368 ) ;
#363 = DIRECTION ( 'NONE',  ( 0.0000000000000000000, 0.0000000000000000000, 1.000000000000000000 ) ) ;
#364 = MANIFOLD_SOLID_BREP ( '²ÝÎß°Ä1', #206 ) ;
#365 = LINE ( 'NONE', #229, #136 ) ;
#366 = PERSON_AND_ORGANIZATION ( #242, #309 ) ;
#367 = CARTESIAN_POINT ( 'NONE',  ( -0.6250000000000000000, -1.000000000000000000, 0.0000000000000000000 ) ) ;
#368 = VECTOR ( 'NONE', #21, 1000.000000000000000 ) ;
#369 = LINE ( 'NONE', #188, #268 ) ;
ENDSEC;
END-ISO-10303-21;
